Table of Contents

Arizona Dream - soundtrack

Soundtrack Arizona Dream

Release : 1993 (then removed from the sales)
Re-release : 2002
Publisher : Mercury (Polygram)
Format : CD

  1. In the deathcar
  2. Dreams
  3. Old Home Movie
  4. TV screen
  5. 7/8 & 11/8
  6. Get the money
  7. Gunpowder
  8. Gypsy reggae
  9. Death
  10. This is a film
  11. American Dreamers Old Home Movie (Johnny Depp)

Composed, arranged & produced by Goran Bregović.

A few weeks after its release, the soundtrack was removed from the sales. Indeed, a complaint was recorded by Corsican band Régina & Bruno Baccara who said Goran Bregović had reused the theme of their song Solenzara for in the deathcar. Refusing to credit the groupe, the CD was unfindable for a long time, thus becoming a rarity. The conflict was finally resolved in 2002 by adding an extra credit line on the CD sleeve, as well as a bonus song : American Dreamers Old Home Movie (by Johnny Depp).

Note :

Buy online : Amazon.fr, Amazon.com, Amazon.de, Amazon.co.uk, Amazon.es, Amazon.it

Alternative versions

Format : 2 titles maxi-CD (promotional disc, not for sale)

  1. In the death car (radio edit)
  2. Rege (instrumental)


Format : audio tape
(same titles as the original CD version)





Format : LP
Country : Greece
This vynil format was sold in Greece only.




Lyrics

In the deathcar

A bowling wind is whistling in the night
My dog is growling in the dark
Something's pulling me outside
To ride around in circles
I know that you have got the time
Coz anything I want, you do
You'll take a ride through the strangers
Who don't understand how to feel
In the deathcar, we're alive
In the deathcar, we're alive

I'll let some air come in the window
Kind of wakes me up a little
I don't turn on the radio
Coz they play shit, like… You know
When your hand was down on my dick
It felt quite amazing
And now that, that is all over
All we've got is the silence
In the deathcar, we're alive
In the deathcar, we're alive
So come on mandolins, play

When I touched you
I felt that you still had your baby fat
And a little taste of baby's breath
Makes me forget about death
At your age you're still joking
It ain't time yet for the choking
So now we can own the movie and see each other truly
In the deathcar, we're alive
In the deathcar, we're alive
I want to ear some mandolins

lyrics : Iggy Pop
Music : Goran Bregović

  Intro   x 2
  
  Guitare
  e---------------------------------------------------------------------------------
  b--12-12-12-------------------------10-10--10-------------------------------------
  g-----------12-12----------------------------11--11-------------------------------
  d-----------------14-12-10-------------------------10--10-9-----------------------
  Basse
  a----------------------0---0---3---2---2------------------------------------------
  e---0---2---3---2---0---------------------------------------0--2--3--2--0--0-0----
  
  Guitare
  e---------------------------------------------------------------------------------
  b--12-12--12--------------10-10------------------10-------------------------------
  g-----------12--12-------------12-11-11--11-11-12--12-11--8-9---------------------
  d-----------------14--14----------------------------------------------------------
  Basse
  a----------------------0---0---3---2---2------------------------------------------
  e---0---2---3---2---0-----------------------------------------0--2--3--2--0--0-0--
  
  
  A howling wind is whistling in the night     My dog is growling in the dark
  a-------------------------0----0----3-----2--------2------------------------------
  e-0----2----3----2----0----------------------------------0--2--3--2--0--0-0-------
  
  Something is pulling me outside     To ride around in circles
  a----------------------0---0---3----2------2--------------------------------------
  e-0---2---3---2---0----------------------------------0--2--3--2--0--0-0-----------
  
  I know that you have got the time     'Cause everything I want, you do
  a----------------------0---0---3----2------2--------------------------------------
  e-0---2---3---2---0---------------------------------0--2--3--2--0--0-0------------
  
  You'll take a ride through the strangers     Who don't understand how you feel
  a---------------------------0-----0-----3-----2--------2--------------------------
  e--0----2----3----2----0-----------------------------------0--2--3--2---0---0--0--
  
  In the deathcar, we're alive                   In the deathcar
  a----------------------------0-0-3--2-2-2-2-2-------------------------------------
  e---------------------------------------------------------------------------------
  
  Intro   x 2                         we're alive
  e---------------------------------------------------------------------------------
  b--12-12-12-------------------------10-10--10-------------------------------------
  g-----------12-12----------------------------11--11-------------------------------
  d-----------------14-12-10-------------------------10--10-9-----------------------
  
  
  I'll let some air come through the window,     kind of wakes me up a little
  a---------------------------0----0----3-----2------2------------------------------
  e--0----2----3----2----0--------------------------------0--2--3--2--0--0--0-------
  
   I don't turn on the radio     'cause they play shit like... you know
  a--------------------0---0---3----2-2-2-2-2---------------------------------------
  e-0---2---3---2---0------------------------------------0---2---3---2---0--0--0----
  
  When your hand was down on my dick     it felt quite amazing
  a-----------------------0---0---3----2-2-2-2-2------------------------------------
  e--0---2---3---2---0------------------------------0--2--3--2--0--0--0-------------
  
  And now that that is all over     all we've got is the silence
  a-----------------------0---0---3-----2-2-2-2-2-----------------------------------
  e--0---2---3---2---0------------------------------------0--2--3--2--0--0--0-------
  
  In the deathcar, we're alive                   In the deathcar
  a----------------------------0-0-3--2-2-2-2-2-------------------------------------
  e---------------------------------------------------------------------------------
  
  Intro   x 2                         we're alive
  e---------------------------------------------------------------------------------
  b--12-12-12-------------------------10-10--10-------------------------------------
  g-----------12-12----------------------------11--11-------------------------------
  d-----------------14-12-10-------------------------10--10-9-----------------------
  
      So come on mandolins                 play
  e---------------------------------------------------------------------------------
  b--12-12--12--------------10-10------------------10-------------------------------
  g-----------12--12-------------12-11-11--11-11-12--12-11--8-9---------------------
  d-----------------14--14----------------------------------------------------------
  
  
  When I touched you, I felt that     you still had your baby fat
  a-------------------0----0---3----2-----2-----------------------------------------
  e--0--2--3--2---0-----------------------------0--2--3--2--0--0--0-----------------
  
  And a little taste of baby's breath     makes me forget about death
  a----------------------0----0----3----2-2-2-2-2-----------------------------------
  e--0---2---3---2---0------------------------------0--2--3--2--0--0--0-------------
  
  At your age, you're still joking     It ain't time for the choking
  a-------------------0----0----3----2-2-2-2-2--------------------------------------
  e--0--2--3--2---0-----------------------------0--2--3--2--0--0--0-----------------
  
  So now we can own the movie,     and love each other truly
  a------------------0--0--3-----2-2-2-2-2------------------------------------------
  e--0--2--3--2--0------------------------------------0--2--3--2--0--0--0-----------
  
  In the deathcar, we're alive                   In the deathcar
  a----------------------------0-0-3--2-2-2-2-2-------------------------------------
  e---------------------------------------------------------------------------------
  
  Intro   x 2                         we're alive
  e---------------------------------------------------------------------------------
  b--12-12-12-------------------------10-10--10-------------------------------------
  g-----------12-12----------------------------11--11-------------------------------
  d-----------------14-12-10-------------------------10--10-9-----------------------
  
     I want to hear some                mandolins
  e---------------------------------------------------------------------------------
  b--12-12--12--------------10-10------------------10-------------------------------
  g-----------12--12-------------12-11-11--11-11-12--12-11--8-9---------------------
  d-----------------14--14----------------------------------------------------------
  
  Outro : fig. intro x 6